CHORDS:

D    Asus    G   Asus

D    Asus    G   Asus

A    F#m/A   G   Asus

D   G   Asus    Bm

Bm   G   Asus   D

Special Chords: 

Asus2            F#m/A

E----0----        E----2---

B----0---         B----2---

G----2---        G----2---

D----2---        D----4---

A----0---        A----0---

E---------        E---------

-

E------------------------------------------------------

B----------5---7-------7---5----------5----10----

G----7----------------------------7------------------

D------------------------------------------------------

A------------------------------------------------------

E------------------------------------------------------

-

E-------------------------------------------

B----7---5---------------------------------

G--------------7----4-----------4---------

D--------------------------5-----------7---

A-------------------------------------------

E-------------------------------------------

-

E------------------------------------------------------

B----------5---7-------7---5----------5----10----

G----7----------------------------7------------------

D------------------------------------------------------

A------------------------------------------------------

E------------------------------------------------------

-

E-------------------------------------------------

B----7---10---12-------10---7-10-7--5----

G-------------------------------------------------

D-------------------------------------------------

A-------------------------------------------------

E-------------------------------------------------

-

E----7---9---10---------9----------------------------------

B-------------------------------10---7-----8---10---12---

G--------------------------------------------------------------

D--------------------------------------------------------------

A--------------------------------------------------------------

E--------------------------------------------------------------

-

E----------------------------------------------------------------

B----10---7---5--------3-5-3---5---7---5------------------

G--------------------------------------------------7---4--------

D------------------------------------------------------------7---

A-----------------------------------------------------------------

E-----------------------------------------------------------------

-

E---------------------------------------------------------------------------

B--------------5----7-8-7-5-----------7---5---------5-------3--3-----

G--------7------------------------7---------------7----------------------

D---------------------------------------------------------------------------

A---------------------------------------------------------------------------

E---------------------------------------------------------------------------