Good Bad and the Ugly theme

Intro
E----------------------------------
B----------------------------------
G----------------------------------
D----0-----0-----0-----0--0----
A----------------------------------
E----------------------------------

E--------------------------------------------------------
B----10h15p10h15p10---------------------------
G----------------------------------10---12-----------
D------------------------------------------------12----
A--------------------------------------------------------
E--------------------------------------------------------

E-------------------------------------------------------
B----10h15p10h15p10-----------------13-----
G---------------------------------10---12-----------
D-------------------------------------------------------
A-------------------------------------------------------
E-------------------------------------------------------

E--------------------------------------------------------
B----10h15p10h15p10---------------------------
G---------------------------------10--9---------------
D-------------------------------------------12--10----
A--------------------------------------------------------
E--------------------------------------------------------

E------------------------------------------------------
B----10h15p10h15p10-------------------------
G----------------------------------12----------------
D-----------------------------------------12--12----
A------------------------------------------------------
E------------------------------------------------------

E---------------------------------------------------------
B-----------------------------------5------8-----10----
G------------2------5--(x3)--2------5----------------
D---------0-----3---------------------------------------
A----0---------------------------------------------------
E---------------------------------------------------------

E--------------------------------------------------------
B----6p5------8--------(x4 2 slow & 2 fast)---
G-----------7--------7---------------------------------
D-------------------------------------------------------
A--------------------------------------------------------
E--------------------------------------------------------

E------------------------------------------------------------------------
B----6p5------6p5--------3-----1p0--------0---------------------
G-----------7---------5-------4-----------2-------0---2p0---------
D-----------------------------------------------------------------3-----
A------------------------------------------------------------------------
E------------------------------------------------------------------------

E-----------------------------------------
B-----------------------------------------
G----0----------------------------------
D---------2---3----0-------------------
A------------------------3----------4---
E-----------------------------------------



Created: 20/07/2015
Visits: 13719
Online: 0